Manga Peuple

( Manga Peuple Par Des Psychopathes )
login.php profile.php?mode=register faq.php memberlist.php search.php index.php

Manga Peuple Index du Forum » Manga Peuple » Culture Générale » Musique » Partitions
Poster un nouveau sujet  Répondre au sujet Sujet précédent :: Sujet suivant 
Partitions
Message Sam 13 Juin 2009 - 18:55 Répondre en citant
Fab
Fan Ah My Goddess

Hors ligne
Inscrit le: 29 Sep 2008
Messages: 624
Localisation: DTC
Masculin
Mangas: 492




Je propose ce topic pour que l'on stock les partitions de nos musiques préférés que l'on a envie de partager ^^

A vos instruments!!!!




Lilium - Elfen Lied

Tablature (pour la guitare ^^)



Refrain (1)


----9--------------9-------------------
-7----9-10-10-7---9-10-12-10-----
------------------------------------11-
----------------------------------------
----------------------------------------
----------------------------------------




Refrain (2)


-------------------------------------------
-9--------7---------------8-9-11-9-9-8-
---9-7-9---7-6-7-9-10------------------
-------------------------------------------
-------------------------------------------
-------------------------------------------






Pont


-7-------------------------
---10-9-------------------
---------11-10-8-10-11-
---------------------------
---------------------------
---------------------------






Transition


-----7-9-10-------10-9-12-----9-12---------------------------
-10----------10-9-----------10--------10-9-----10-10-12-9-
------------------------------------------------11----------------
-------------------------------------------------------------------
-------------------------------------------------------------------
------------------------------------------------------------------






Come as you are - Nirvana

(très très facile)


Rythmique:

-----------------------------------
-----------------------------------
-----------------------------------
-----------------------------------
-----------0---0-----------2-----
-0-0-1-2---2---2-2-1-0---0-0-

(a répéter)



Enter Sandman - Metallica

(Uniquement la rythmique, facile a reproduir ^^ )


-0-----6-5----0------6-5----0----
---7--------7----7---------7------
-----5--------------5--------------
-----------------------------------
-----------------------------------
-----------------------------------
Publicité
Message Sam 13 Juin 2009 - 18:55
Publicité




PublicitéSupprimer les publicités ?
Partitions
Message Sam 13 Juin 2009 - 19:00 Répondre en citant
JYM
Damnation au Nutella

Hors ligne
Inscrit le: 28 Sep 2008
Messages: 7 144
Localisation: Dans ton cul!
Skyblog: URL
Mangas: 762




a la batterie on joue comment? XD
Visiter le site web du posteur MSN Skype
Partitions
Message Sam 13 Juin 2009 - 19:10 Répondre en citant
Fab
Fan Ah My Goddess

Hors ligne
Inscrit le: 29 Sep 2008
Messages: 624
Localisation: DTC
Masculin
Mangas: 492




-_-
Partitions
Message Sam 13 Juin 2009 - 19:51 Répondre en citant
JYM
Damnation au Nutella

Hors ligne
Inscrit le: 28 Sep 2008
Messages: 7 144
Localisation: Dans ton cul!
Skyblog: URL
Mangas: 762




j'ai trouver finalement! je vais tester ça après mon w-e Smile
Visiter le site web du posteur MSN Skype
Partitions
Message Sam 20 Juin 2009 - 05:07 Répondre en citant
fmmyriam
Reine des Pastèques

Hors ligne
Inscrit le: 18 Oct 2008
Messages: 1 039
Localisation: St Germain-en-Laye
Féminin
Mangas: 0




Et pour ceux qui savent rien jouer...? Y_Y
Partitions
Message Sam 20 Juin 2009 - 10:05 Répondre en citant
JYM
Damnation au Nutella

Hors ligne
Inscrit le: 28 Sep 2008
Messages: 7 144
Localisation: Dans ton cul!
Skyblog: URL
Mangas: 762




En faite ce son des tablature encore plus simple que des partition où tu doit apprendre ton solfège!
chaque ligne correspond a une corde, et chaque numéro correspond a un endroit ou tu doit poser ton doigt.
En ce moment je travaille sur des tablature de batterie, je vais essayer de faire un tuto si sa intéresse du monde.
Visiter le site web du posteur MSN Skype
Partitions
Message Dim 21 Juin 2009 - 00:07 Répondre en citant
Faye317
Shinobi (忍)

Hors ligne
Inscrit le: 13 Oct 2008
Messages: 57
Localisation: Reims
Féminin
Mangas: 106




et au piano? Very Happy  

Je ne connais pratiquement que les Final Fantasy ^^ (Zanarkand, Tina... coeur de lyon )
MSN
Partitions
Message Dim 21 Juin 2009 - 00:32 Répondre en citant
JYM
Damnation au Nutella

Hors ligne
Inscrit le: 28 Sep 2008
Messages: 7 144
Localisation: Dans ton cul!
Skyblog: URL
Mangas: 762




la je sais pas demanderais a Sana ^^
Visiter le site web du posteur MSN Skype
Partitions
Message Aujourd’hui à 19:10
Contenu Sponsorisé




Partitions
Manga Peuple Index du Forum » Musique
Toutes les heures sont au format GMT + 2 Heures  
Page 1 sur 1  

  
  
 Poster un nouveau sujet  Répondre au sujet  

Index | créer un forum | Forum gratuit d’entraide | Annuaire des forums gratuits | Signaler une violation | Conditions générales d'utilisation
Powered by phpBB © 2001-2004 phpBB Group
Designed for Trushkin.net | Themes Database
Traduction par : phpBB-fr.com